Cifra – Simplesmente Amor – Katinguelê

Cifra – Simplesmente Amor – Katinguelê

Aprenda a tocar com a Cifra da Música Simplesmente Amor
Intérprete: Katinguelê
Tom: E

INSCREVA-SE em nosso canal para não perder nenhum vídeo. Bons estudos!

Vídeo:

Intro:
E|-------------------------------------4------|
B|-----7-7\5-5-----7-7\5-4----------------7-5-|
G|---9-----------9----------4-4/6--4/6--------|
D|-9-----------9------------------------------|
A|--------------------------------------------|
E|--------------------------------------------|

E|----------------7-----------------------------------|
B|---5-5/7-7/5-5----5/7-7\5-5^4------5^4^5------------|
G|-4---------------------------4-4/6-------4/6--4^6-4-|
D|----------------------------------------------------|
A|----------------------------------------------------|
E|----------------------------------------------------|

E                    F#m7                       G#m7
se eu tentar te convencer de que eu estou apaixonado
           F#m7         B7
você vai dizer que é loucura
E                         F#m7                 G#m7
se eu não falar e for pra casa com o peito apertado
                A7+             B7
pode crer que a noite vai ser dura
C#m7
ouço tatuagem como forma de oração
C7+
Meu apartamento é frio e chato sem você
Am7                                     E  (A9 - E)
Tento adormecer com a claridade inquieta da tv
   C#m7                      G#m7
Eu sei que nada disso faz sentido
                      A7+
pra quem não conhece a nossa história
    C#m7                 G#m7
Mas olha quanta coisa no ar
                  F#m7
É tão claro e tão simples
                 Am7
Simples como uma flor
              E
Simplesmente amor
E|------------------------------------7---7-7^9-7--|
B|-----------------------7-7^9-7---7----9----------|
G|-------------6-6^9-6-9---------9-----------------|
D|-----6^9-6-9-------------------------------------|
A|-7-9---------------------------------------------|
E|-------------------------------------------------|

C#m7                      G#m7
Eu sei que nada disso faz sentido
                       A7+
pra quem não conhece a nossa história
    C#m7                 G#m7
Mas olha quanta coisa no ar
                 
 F#m7
É tão claro e tão simples
                 Am7
Simples como uma flor
              E
Simplesmente amor
Solo:
E|----------------------------------------|
B|---5/7-7\5-5/9-----5/7--7\5-5\4-4-------|
G|-4---------------4----------------4-----|
D|----------------------------------------|
A|----------------------------------------|
E|----------------------------------------|

E|----------------7/9-7-6-------------7----------------------|
B|---5/7-7-7--------------7----------------------------------|
G|-4---------6-6------------6-8-9-8-9----6-8-9-8-9---------9-|
D|-------------------------------------------------7/9-7-9---|
A|-----------------------------------------------------------|
E|-----------------------------------------------------------|

E                    F#m7                       G#m7
se eu tentar te convencer de que eu estou apaixonado
           F#m7         B7
você vai dizer que é loucura
E                         F#m7                 G#m7
se eu não falar e for pra casa com o peito apertado
                A7+             B7
pode crer que a noite vai ser dura
C#m7
ouço tatuagem como forma de oração
C7+
Meu apartamento é frio e chato sem você
Am7                                     E  ( A9  E )
Tento adormecer com a claridade inquieta da tv
   C#m7                      G#m7
Eu sei que nada disso faz sentido
                       A7+
pra quem não conhece a nossa história
    C#m7                 G#m7
Mas olha quanta coisa no ar
                  F#m7
É tão claro e tão simples
                 Am7
Simples como uma flor
              E
Simplesmente amor

   C#m7                      G#m7
Eu sei que nada disso faz sentido
                       A7+
pra quem não conhece a nossa história
    C#m7                 G#m7
Mas olha quanta coisa no ar
                  F#m7
É tão claro e tão simples
                 Am7
Simples como uma flor
              E
Simplesmente amor

Quer receber as Melhoras Aulas e Dicas Exclusivas de Cavaquinho do Professor Damiro?
Entre agora para o Grupo Clube dos Cavaquinistas no Telegram, clicando no link abaixo:
https://t.me/clubedoscavaquinistas

COMENTÁRIOS