Cifra – Saber Que Pensa Em Mim – ImaginaSamba

Cifra – Saber Que Pensa Em Mim – ImaginaSamba

Aprenda a tocar com a Cifra da Música Saber Que Pensa Em Mim
Intérprete: ImaginaSamba
Tom: Em

INSCREVA-SE em nosso canal para não perder nenhum vídeo. Bons estudos!

Vídeo:

E|----------------------------------------------------------------|
B|--------5-4-----------------------------------------------------|
G|------4---------------------------------------------------------|
D|--2-5----------4-4-4-4-4-4-2------------------------------------|
A|-2--------------------------------------------------------------|
E|----------------------------------------------------------------|

E|----------------------7--8-7-5--5--8------8---------2h5-7-5-3---|
B|---3-5-8-7-5-3----5-8---------8-----8-10---8-10-8-7-----------5-|
G|-4------------4-5-----------------------------------------------|
D|----------------------------------------------------------------|
A|----------------------------------------------------------------|
E|----------------------------------------------------------------|

E|----------------------------------------------------------------|
B|----------------------------------------------------------------|
G|----------------------------------------------------------------|
D|-----1-0-----5--------------------------------------------------|
A|---2-----------5------------------------------------------------|
E|-3--------------------------------------------------------------|

Em7
Nosso encontro é sempre assim
              D            D9
Tudo tão perfeito até demais
Em7
Bom se não tivesse fim
              D             D9
Se não fosse embora nunca mais
   C7M
A hora passou Vai sair fora
        G/B
Vai me deixar Será que vai voltar
C7M
Tudo é tão bom
          Am7
Que vale esperar
            F#m7(5-)      B7(9-)
Enquanto isso vou imaginar
Em7
Nosso encontro é sempre assim
                 D               D9
Fazemos de um jeito que ninguém faz
Em7
Mas você já vai partir
                  D            D9
Se não for logo embora quero mais
    C7M
Você ganhou Te dei tudo de mim
          G/B
Gosto assim quando amor
      Am7                      Am/G     
Se a gente não for acabar nunca com isso

F#m7(5-)      B7(9-)
Então tá bom Pode ir
Em7
Mas me telefona pelo menos

Pra dizer “tô aqui”
C7M
Uma mensagem boa noite antes de dormir
Am7                    Am/G
Sei que isso é complicado
                  F#m7(5-)
Mas me faz tão bem
                   B7(9-)
Saber que pensa em mim

Quer receber as Melhoras Aulas e Dicas Exclusivas de Cavaquinho do Professor Damiro?
Entre agora para o Grupo Clube dos Cavaquinistas no Telegram, clicando no link abaixo:
https://t.me/clubedoscavaquinistas

COMENTÁRIOS