Cifra – Porque Te Amo – Sem Compromisso

Cifra – Porque Te Amo – Sem Compromisso

Aprenda a tocar com a Cifra da Música Porque Te Amo
Intérprete: Sem Compromisso
Tom: A

INSCREVA-SE em nosso canal para não perder nenhum vídeo. Bons estudos!

Vídeo:

(intro)

 A   C#m7   Bm7   E7   A   C#m7   Bm7   E7


(solo teclado)

E|-------------------------------------------------------------------------|
B|-------2-5-3-2-5---3-2---3--------2-5-3-2-5--3-2---3---5-3-2-------------|
G|-----2-----------------4--------2----------------4-----------4-2-1-2-4-2-|
D|-2-4------------------------2-4------------------------------------------|
A|-------------------------------------------------------------------------|
E|-------------------------------------------------------------------------|


(solo violão)

E|-4/5-4-2-----------------3/4-2-------------------4/5-4-2----------------------------------|
B|---------5-3-2-------3---------5-3-----------------------5-3-2-------3--4/5-3-2-----------|
G|---------------4-2-4---------------4-2-1-2-4-2-----------------4-2-4----------4-2-1-2-4-2-|
D|------------------------------------------------------------------------------------------|
A|------------------------------------------------------------------------------------------|
E|------------------------------------------------------------------------------------------|



A
...Eu me pego num canto calado
    C#m7
Chorando, sofrendo
    Bm7
Nem sempre estou ao seu lado
            E7
Eu quero é mais viver.
         A
Quando acordo e não vejo seu rosto
              C#m7
Me falta um beijo seu
     Bm7                           E7
E parece que tudo acabou..você me esqueceu
       A
Seu sorriso me fala
                           C#m7
Seus olhos não conseguem esconder
     Bm7
Sua voz me chama em meus sonhos
       D/E E7
No amanhecer!
F#m7            C#m7
...Pensando na saudade que ficou
F#m7            C#m7
...Pensando na felicidade que deixou
    D7+
Eu luto contra o tempo
    Bm7                      D/E
Lembrando dos momentos..que eram bons..
     E7
Que eram bons..


Refrâo:


    A                       C#m7
Preciso de uma chance pelo menos pra mostrar
    D7+                    E7
O quanto eu te amo e não podes me deixar
        A
Estou doente de paixão
        C#m7
Prestes a enlouquecer
    D7+
Me acha em seu caminho
          E7          D/E
Pois meu mundo é você..
           A  C#m7  Bm7  E7
Porque te amo..
           A  C#m7  Bm7  E7
Porque te amo..
[epico_capture_sc id=”898″]

Quer receber as Melhoras Aulas e Dicas Exclusivas de Cavaquinho do Professor Damiro?
Entre agora para o Grupo Clube dos Cavaquinistas no Telegram, clicando no link abaixo:
https://t.me/clubedoscavaquinistas

COMENTÁRIOS