Cifra – Desafio – Harmonia do Samba

Cifra – Desafio – Harmonia do Samba

Aprenda a tocar com a Cifra da Música Desafio
Intérprete: Harmonia do Samba
Tom: G

INSCREVA-SE em nosso canal para não perder nenhum vídeo. Bons estudos!

Vídeo:

G        E7        Am
Se você aceitar o desafio
          D7                        G
Eu vou cantar um samba pra você dançar
              E7       Am
Esse swing provoca arrepio
             D7                 G
Pegue o cavaco o show vai começar

               Em     Bm      C   D    G
Vou pedir pra você vibrarr (vibrar, vibrar)
G              Em     Bm
Vou pedir pra você mandar
 Am     D7           G
Mandar meu cavaco chorar
                           G D7
"Mandei meu cavaco chorar"

[solo]

E|--------------------------------------|
B|--------------------------------------|
G|-----------4-----4-4------------------|
D|-------------5-5-----5-5-4------------|
A|--------------------------------------|
E|--------------------------------------|

G      Em         Bm
E a galera não vacilou
 C              G    Em
Fez a poeira subir
               Am
Sem sair do compasso
         D7            G
Mais uma vez eu quero ouvir
   G                 D7
"Mandei meu cavaco chorar"

[solo]

E|--------------------------------|
B|--------------------------------|
G|--------4-4----4-4----55----55--|
D|------5----5-5----5-4----44----4|
A|--------------------------------|
E|--------------------------------|

 G        E7        Am
Se você aceitar o desafio
          D7                        G
Eu vou cantar um samba pra você dançar
              E7       Am
Esse swing provoca arrepio
             D7                 G
Pegue o cavaco o show vai começar

               Em     Bm      C   D    G
Vou pedir pra você vibrarr (vibrar, vibrar)
G              Em     Bm
Vou pedir pra você mandar
 Am     D7           G
Mandar meu cavaco chorar
                           G D7
"Mandei meu cavaco chorar"

[solo]

E|--------------------------------------|
B|--------------------------------------|
G|-----------4-----4-4------------------|
D|-------------5-5-----5-5-4------------|
A|--------------------------------------|
E|--------------------------------------|

G      Em         Bm
E a galera não vacilou
 C              G    Em
Fez a poeira subir
               Am
Sem sair do compasso
         D7            G
Mais uma vez eu quero ouvir
   G                 D7
"Mandei meu cavaco chorar"
[epico_capture_sc id=”898″]

Quer receber as Melhoras Aulas e Dicas Exclusivas de Cavaquinho do Professor Damiro?
Entre agora para o Grupo Clube dos Cavaquinistas no Telegram, clicando no link abaixo:
https://t.me/clubedoscavaquinistas

COMENTÁRIOS