Cifra – Vida de Solteiro – Gabriel Diniz

Cifra – Vida de Solteiro – Gabriel Diniz

Aprenda a tocar com a Cifra da Música Vida de Solteiro
Intérprete: Gabriel Diniz
Tom: A

INSCREVA-SE em nosso canal para não perder nenhum vídeo. Bons estudos!

Vídeo:

[Intro] 

E|-----------------------------6-6---6----|
B|-3-3-3-3-3-3-------3-3-3-3-3---------3~-|
G|-------------3-3-3----------------------|
D|----------------------------------------|
A|----------------------------------------|
E|----------------------------------------|

E|----------------------------------------|
B|----------------------------------------|
G|-5-6--3-4-5---5-4-3~--------------------|
D|------------3--------7-6-5---5---5------|
A|-------------------------------4--------|
E|------------------------------------3-6~|

E|----------------------------------------|
B|-3-6------------------------------------|
G|-----4-3-5-3----------------------------|
D|-------------5-3~-----------------------|
A|----------------------------------------|
E|----------------------------------------|

  P.................................
E|----------------------------------------|
B|-3-3-3---3-3-----6-6-6---6-5-6-5--3-----|
G|-------5-----5-3------------------------|
D|----------------------------------------|
A|----------------------------------------|
E|----------------------------------------|

Cm               G#                  Eb
Eu separei, voltei, mas acabei de novo
          A#
Porque? Vida de Solteiro é Mais Gostoso

Cm               G#                  Eb
Eu separei, voltei, mas acabei de novo
          A#
Porque? Vida de Solteiro é Mais Gostoso

Cm
A gente nunca deu certo
G#
Não aguentava mais
Eb                      A#
Desse Briga e separa, vai e volta

Desse entre e sai
Cm
Toda hora vou embora
G#
Liga e chora
Eb                       A#
Eita que saudade do meu tempo

Que vivia em Paz
Cm
Tá tudo acabado
G#
Da prisão me livrei
Eb
Bem-vindo a liberdade

    D
E|---------------------------------------|
B|---------------------------------------|
G|---------------------------------------|
D|----------5~---------------------------|
A|-3-6-4-3-------------------------------|
E|---------------------------------------|

D
Adeus pra minha ex

Cm               G#                  Eb
Eu separei, voltei, mas acabei de novo
          A#
Porque? Vida de Solteiro é Mais Gostoso

Cm               G#                  Eb
Eu separei, voltei, mas acabei de novo
          A#
Porque? Vida de Solteiro é Mais Gostoso

  P.................................
E|-----------------------------------|
B|-3-3-3---3-3-----6-6-6---6-5-6-5-3-|
G|-------5-----5-3-------------------|
D|-----------------------------------|
A|-----------------------------------|
E|-----------------------------------|

Cm
A gente nunca deu certo
G#
Não aguentava mais
Eb                      A#
Desse Briga e separa, vai e volta

Desse entre e sai
Cm
Toda hora vou embora
G#
Liga e chora
Eb                       A#
Eita que saudade do meu tempo

Que vivia em Paz
Cm
Tá tudo acabado
G#
Da prisão me livrei
Eb
Bem-vindo a liberdade

    D
E|---------------------------------------|
B|---------------------------------------|
G|---------------------------------------|
D|----------5~---------------------------|
A|-3-6-4-3-------------------------------|
E|---------------------------------------|

D 
Adeus pra minha ex

Cm               G#                  Eb
Eu separei, voltei, mas acabei de novo
          A#
Porque? Vida de Solteiro é Mais Gostoso

Cm               G#                  Eb
Eu separei, voltei, mas acabei de novo
          A#
Porque? Vida de Solteiro é Mais Gostoso

Cm               G#                  Eb
Eu separei, voltei, mas acabei de novo
          A#
Porque? Vida de Solteiro é Mais Gostoso

Cm               G#                  Eb
Eu separei, voltei, mas acabei de novo
          A#
Porque? Vida de Solteiro é Mais Gostoso

Quer receber as Melhoras Aulas e Dicas Exclusivas de Cavaquinho do Professor Damiro?
Entre agora para o Grupo Clube dos Cavaquinistas no Telegram, clicando no link abaixo:
https://t.me/clubedoscavaquinistas

COMENTÁRIOS