Cifra – Pé do Meu Samba – Mart’nália

Cifra – Pé do Meu Samba – Mart’nália

Aprenda a tocar com a Cifra da Música Pé do Meu Samba
Intérprete: Mart’nália
Tom: D

INSCREVA-SE em nosso canal para não perder nenhum vídeo. Bons estudos!

Vídeo:

[Intro] F#m7(11)  B7(b9)  Em7(9) Em7(9) A74(9) A7(9)
        D/A  Ab7(#11) G7M G#º D/A Bm7 Em7 F#7 Bm7 F#7

E|--14-------15-14-12---------------------------------|
B|------12------------12------------------------------|
G|-------------------------12-11-9--------------------|
D|----------------------------------------------------|
A|----------------------------------------------------|
E|----------------------------------------------------|

E|--12-12----12/14---14-12-10--10-9-8-----------------|
B|--------10------------------------------------------|
G|----------------------------------------------------|
D|----------------------------------------------------|
A|----------------------------------------------------|
E|----------------------------------------------------|

E|--10----10-12--10h12p10-----------------------------|
B|-----12--------------------12-----------------------|
G|----------------------------------------------------|
D|----------------------------------------------------|
A|----------------------------------------------------|
E|----------------------------------------------------|

E|---10----10-12-14-12-10-----------------------------|
B|------12----------------12--------------------------|
G|----------------------------------------------------|
D|----------------------------------------------------|
A|----------------------------------------------------|
E|----------------------------------------------------|

E|--12-12--12-12-10-9-------9-10-9--------------------|
B|--------------------12-11--------12-----------------|
G|------------------------------------11--------------|
D|----------------------------------------------------|
A|----------------------------------------------------|
E|----------------------------------------------------|

E-----------------------------------------------------|
B|-------10-8-10-7------------------------------------|
G|-9-7-9-------------9-7------------------------------|
D|----------------------------------------------------|
A|----------------------------------------------------|
E|----------------------------------------------------|

 Bm7                 Em7
Dez na maneira e no tom
                 F#7
Você é o cheiro bom
               Bm7       
Da madeira do meu violão
   A7              D6(9)/A
Você é a Festa da Penha

                    F#7
A Feira de São Cristóvão
              Bm7  B7(b13)  Em7
É a Pedra do Sal
                     Bm7
Você é a Intrépida Trupe
                G7M
A Lona de Guadalupe
                      F#7(b13)
Você é o Leme e o Pontal
Bm7                  Em7
  Nunca me deixa na mão
             F#7
Você é a canção que consigo
      Bm7       A7
Escrever afinal
                  D6(9)/A
Você é o Buraco Quente
                F#7
A Casa da Mãe Joana
                Bm7  B7(b13)  Em7
Você é Vila Isabel
                     Bm7
Você é o Largo Do Estácio
                G7M
Curva de Copacabana
                     F#7(b13)
Tudo o que o Rio me deu!

 F#m7(11)  B7(b9)     Em7(9)
Pé        do     meu samba
  A7(4/9) A7(9)  D/A  Ab7(#11)
Chão do  meu terreiro
G7M             G#º
  Mão do meu carinho                    
D/A                Bm7
  Glória em meu outeiro
Em7                F#7
  Tudo para o coração
            Bm7   F#7(b13) 
De um brasileiro

 Bm7                 Em7
Dez na maneira e no tom
                 F#7
Você é o cheiro bom
               Bm7       
Da madeira do meu violão
   A7              D6(9)/A
Você é a Festa da Penha
                    F#7
A Feira de São Cristóvão
              Bm7  B7(b13)  Em7
É a Pedra do Sal
                     Bm7
Você é a Intrépida Trupe
                G7M
A Lona de Guadalupe
                      F#7(b13)
Você é o Leme e o Pontal

Bm7                  Em7
  Nunca me deixa na mão
             F#7
Você é a canção que consigo
      Bm7       A7
Escrever afinal
                  D6(9)/A
Você é o Buraco Quente
                F#7
A Casa da Mãe Joana
                Bm7  B7(b13)  Em7
Você é Vila Isabel
                     Bm7
Você é o Largo Do Estácio
                G7M
Curva de Copacabana
                     F#7(b13)
Tudo o que o Rio me deu!

 F#m7(11)  B7(b9)     Em7(9)
Pé        do     meu samba
  A7(4/9) A7(9)  D/A  Ab7(#11)
Chão do  meu terreiro
G7M             G#º
  Mão do meu carinho                    
D/A                Bm7
  Glória em meu outeiro
Em7                F#7
  Tudo para o coração
            Bm7   F#7(b13) 
De um brasileiro

 F#m7(11)  B7(b9)     Em7(9)
Pé        do     meu samba
  A7(4/9) A7(9)  D/A  Ab7(#11)
Chão do  meu terreiro
G7M             G#º
  Mão do meu carinho                    
D/A                Bm7
  Glória em meu outeiro
Em7                F#7
  Tudo para o coração
            Bm7   F#7(b13) 
De um brasileiro

G7M             G#º
  Mão do meu carinho                    
D/A                Bm7
  Glória em meu outeiro
Em7                F#7
  Tudo para o coração
            Bm7   F#7(b13) 
De um brasileiro

Em7                F#7
  Tudo para o coração
            Bm7 
De um brasileiro
Em7                F#7
  Tudo para o coração

            Bm7 
De um brasileiro
[epico_capture_sc id=”898″]

Quer receber as Melhoras Aulas e Dicas Exclusivas de Cavaquinho do Professor Damiro?
Entre agora para o Grupo Clube dos Cavaquinistas no Telegram, clicando no link abaixo:
https://t.me/clubedoscavaquinistas

COMENTÁRIOS