Cifra – Mainha Gosta Assim (Part. Ivete Sangalo) – Léo Santana

Cifra – Mainha Gosta Assim (Part. Ivete Sangalo) – Léo Santana

Aprenda a tocar com a Cifra da Música Mainha Gosta Assim (Part. Ivete Sangalo)
Intérprete: Léo Santana
Tom: G

INSCREVA-SE em nosso canal para não perder nenhum vídeo. Bons estudos!

Vídeo:

[Intro] Ebm7
        Ebm7  B9  Db9

E|-6-6-6---------------------6-6-6--------------------|
B|-------7-6----7-7-7-6------------7-6----7-7-7-6-----|
G|-----------6----------8--------------6----------8---|
D|----------------------------------------------------|
A|----------------------------------------------------|
E|----------------------------------------------------|

E|-6-6-6---------------------6-6-6--------------------|
B|-------7-6----7-7-7-6------------7-6---7p6-7p6-7p6--|
G|-----------6----------8--------------6-------------8|
D|----------------------------------------------------|
A|----------------------------------------------------|
E|----------------------------------------------------|

[Primeira Parte]

 Ebm7
Sabe o que eu levo no peito

Coração que bate com bumbo e tambor
 B7M
Roda a baiana, mais doce que cana

Mais quente que letra de amor
 Ebm7
Tô na sua casa, no palco, na praça

Na tela do computador
  B7M
Pra quem tava com saudade

Aumenta o volume que Ivete chegou

[Pré-Refrão]   

   Ebm7   Ebm7/C#    Ebm6/C
A gente é isso    aqui
     B7M
Meu povo
            Ebm7  
Sangue que corre na veia
        Ebm7/C#  
Faz o que der na telha
     Ebm6/C
E batuque tamborim
       B7M
Se prepara pra subir

[Refrão]
 
   Ebm7                        B9      Db9 
E|-----4-6-4---------4-6-4-----2-------4--------------|
B|-4-7-------7---4-7-------7---2-------4--------------|
G|-----------------------------4-------6--------------|
D|-----------------------------4-------6--------------|
A|-----------------------------2-------4--------------|
E|----------------------------------------------------|

Ebm7                                            B9       
Ai, ai, ai, ai, ai, ai, ai, ai, ai, ai, ai, ai, ai
       Db9
Tá tremendo tudo aqui
Ebm7                                            B9       
Ai, ai, ai, ai, ai, ai, ai, ai, ai, ai, ai, ai, ai
        Db9
É que mainha gosta assim
Ebm7                                            B9       
Ai, ai, ai, ai, ai, ai, ai, ai, ai, ai, ai, ai, ai
       Db9
Tá tremendo tudo aqui
Ebm7                                            B9       
Ai, ai, ai, ai, ai, ai, ai, ai, ai, ai, ai, ai, ai
         Db9
É que gigante gosta assim

( Ebm7  B9 )
( Ebm7  B9 )

E|-6-6-6---------------------6-6-6--------------------|
B|-------7-6----7-7-7-6------------7-6----7-7-7-6-----|
G|-----------6----------8--------------6----------8---|
D|----------------------------------------------------|
A|----------------------------------------------------|
E|----------------------------------------------------|

E|-6-6-6---------------------6-6-6--------------------|
B|-------7-6----7-7-7-6------------7-6---7p6-7p6-7p6--|
G|-----------6----------8--------------6-------------8|
D|----------------------------------------------------|
A|----------------------------------------------------|
E|----------------------------------------------------|

[Primeira Parte]

 Ebm7
Sabe o que eu levo no peito

Coração que bate com bumbo e tambor
 B7M
Roda a baiana, mais doce que cana

Mais quente que letra de amor
 Ebm7
Tô na sua casa, no palco, na praça

Na tela do computador
  B7M
Pra quem tava com saudade

Aumenta o volume que Ivete chegou

[Pré-Refrão]   

   Ebm7   Ebm7/C#    Ebm6/C
A gente é isso    aqui
     B7M
Meu povo
            Ebm7  
Sangue que corre na veia
        Ebm7/C#  
Faz o que der na telha
     Ebm6/C
E batuque tamborim
       B7M
Se prepara pra subir

[Refrão]

Ebm7                                            B9       
Ai, ai, ai, ai, ai, ai, ai, ai, ai, ai, ai, ai, ai
       Db9
Tá tremendo tudo aqui
Ebm7                                            B9       
Ai, ai, ai, ai, ai, ai, ai, ai, ai, ai, ai, ai, ai
        Db9
É que mainha gosta assim
Ebm7                                            B9       
Ai, ai, ai, ai, ai, ai, ai, ai, ai, ai, ai, ai, ai
       Db9
Tá tremendo tudo aqui
Ebm7                                            B9       
Ai, ai, ai, ai, ai, ai, ai, ai, ai, ai, ai, ai, ai
         Db9
É que gigante gosta assim

[Ponte]

E|----------------------------------------------------|
B|----------------------------------------------------|
G|----------------------------------------------------|
D|----------------------------------------------------|
A|----------------------------------------------------|
E|-6-6-6--6-6-4-2-7---7-7-7--7-7-4-2-8---8-8-8--8-8---|

E|----------------------------------------------------|
B|----------------------------------------------------|
G|----------------------------------------------------|
D|----------------------------------------------------|
A|----------------------------------------------------|
E|-4-2-7---7-7-7--7-7-4-2-6---------------------------|

                             B7M   Bb7  Ebm7
E|---------------------------------6-----6------------|
B|---------------------------------6-----7------------|
G|---------------------------9-----7-----6------------|
D|---------------------------8-----6-----8------------|
A|---------------------------8-----8-----6------------|
E|-6-6-6--6-6-4-2-7---7-7-7--7-----6------------------|

[Pré-Refrão]   

   Ebm7   Ebm7/C#    Ebm6/C
A gente é isso    aqui
     B7M
Meu povo
            Ebm7  
Sangue que corre na veia
        Ebm7/C#  
Faz o que der na telha
     Ebm6/C
E batuque tamborim
       B7M
Se prepara pra subir

[Refrão]

Ebm7                                            B9       
Ai, ai, ai, ai, ai, ai, ai, ai, ai, ai, ai, ai, ai
       Db9
Tá tremendo tudo aqui
Ebm7                                            B9       
Ai, ai, ai, ai, ai, ai, ai, ai, ai, ai, ai, ai, ai
        Db9
É que mainha gosta assim
Ebm7                                            B9       
Ai, ai, ai, ai, ai, ai, ai, ai, ai, ai, ai, ai, ai
       Db9
Tá tremendo tudo aqui
Ebm7                                            B9       
Ai, ai, ai, ai, ai, ai, ai, ai, ai, ai, ai, ai, ai
         Db9
É que gigante gosta assim

COMENTÁRIOS