Cifra – Lavoura – Roberta Sá

Cifra – Lavoura – Roberta Sá

Aprenda a tocar com a Cifra da Música Lavoura
Intérprete: Roberta Sá
Tom:Eb

INSCREVA-SE em nosso canal para não perder nenhum vídeo. Bons estudos!

Vídeo:

  Gm      Eb/G   Gm6    Eb/G
Uhhhhh uhhh  uhhhh   uhhhhhh
Gm      Eb/G    Gm6    Eb/G
Narãin, narãin, narãin, nãnã

D |----3h4h5--3------------------
A |-------------------5---3----1---

 Gm                     D7/A
Quatro da manhã dor na apogeu
Gm/Bb    G/B     Cm  Cm6   F7          F#º    Gm  Gm6
A    lua     já se    escondeu, vestindo o céu de puro breu
Eb/G        Eb7M(#5)    Am7/11      Eb7M/9      D7(#9)      Gm
E eu mau  vejo    a      minha mão, a raaabiscaaaar      esboço de canção

D |----3h4h5--5--3-----------------------------
A |-----------------------6--5--3-----------------
E |-----------------------------------5------3-----

Gm          E|----3--4--5---  D7/A
  Poesia vã                      Pobre verso meu
        Gm/Bb   G/B         Cm  Cm6      F7         F#º       Gm7  Gm6
Que brota       quando feneceu       A mesma flor que concebeu
    Eb/G     Eb7M(#5)    Am7(11)
Perdido     na alu      -    cinação
        Eb7M(9)   D7(#9)     G7
Do amor                        acredi  -  tando na ilusão
Fm7              G7                     C7/9    F7                              F#º                Gm – Gm6
Canto pra esquecer a dor da vida,    sei que o destino do amor é sempre a despedida
 Eb/G            Eb/Ab       D7                                         G7
A tristeza é o grão      saudade é o chão onde eu planto
       Cm7          Am7(b5)        D7(b9)             Gm7
Do ventre da solidão é que nasce o meu canto

( Gm7  Eb/Bb   Em/G  Eb/Bb )

E |-----10--10-10-10-10/12---12---12\11--------------------------------------------------
B |--------------------------------------------------------------------------------------
G |--7----7----7----7-----7---/9----9----9\8---------------------------------------------
D |-------------------------------------------------3h4h5--5--3--------------------------
A |-----------------------------------------------------------------6--5--3--------------
E |----------------------------------------------------------------------------5------3--

Gm
   Poesia vã
D7/A
   Pobre verso meu

        Gm/Bb   G/B         Cm  Cm6      F7         F#º       Gm7  Gm6
Que brota       quando feneceu        A mesma flor que concebeu
    Eb/G     Eb7M(#5)    Am7(11)
Perdido     na alu      -    cinação
        Eb7M(9)   D7(#9)     G7
Do amor                        acreditando na ilusão
Fm7              G7                     C7/9    F7                   F#º       Gm  Gm6
Canto pra esquecer a dor da vida,    sei que o destino do amor é sempre a despedida
Eb/G            Eb/Ab       D7                                         G7
A tristeza é o grão      saudade é o chão onde eu planto
       Cm7          Am7(b5)        D7(b9)             Gm7
Do ventre da solidão é que nasce o meu canto
Eb7M(9)               D7(b9)
Do ventre da solidão
                             Gm     Gm/F
É que nasce o meu canto
Eb7M(9)                     D7(b9)
Do ventre da solidão
                              Gm    Eb/Bb   Em/G  Eb/Bb
É que nasce o meu can  -  to

Quer receber as Melhoras Aulas e Dicas Exclusivas de Cavaquinho do Professor Damiro?
Entre agora para o Grupo Clube dos Cavaquinistas no Telegram, clicando no link abaixo:
https://t.me/clubedoscavaquinistas

COMENTÁRIOS (1)

  • comment-avatar

    good opener on tinder

    Cifra – Lavoura – Roberta Sá – Cifras de Samba


  •