Cifra – Chita Fina – Roberta Sá

Cifra – Chita Fina – Roberta Sá

Aprenda a tocar com a Cifra da Música Chita Fina
Intérprete: Roberta Sá
Tom: A

INSCREVA-SE em nosso canal para não perder nenhum vídeo. Bons estudos!

Vídeo:

(intro)
   A            E           E7              A  (4x)   A            E         E/G#             A
E|------------------------------------------5-------|-----------------------------------------5--|
B|------------------------------------------5-------|-----------------------------------------5--|
G|-------6-6--3/4-4-----------------4-------6-------|-------6-6--3/4-4------------------------6--|
D|----7--------------6-6--------4/6---6/7---7-------|----7--------------6-6------4/6-6\4------7--|
A|-----------------------7--7-7-------------7-------|------------------------7------------7---7--|
E|-5----------------------------------------5-------|-5---------------------------------------5--|

   A            E           E7              A  (4x)   A            E         E/G#            A
E|------------------------------------------5-------|-----------------------------9\7\5------5---|
B|------------------------------------------5-------|----------------------------------------5---|
G|-------6-6--3/4-4-----------------4-------6-------|-------6-6--3/4-4------------9\7\6------6---|
D|----7--------------6-6--------4/6---6/7---7-------|----7--------------6-6------------------7---|
A|-----------------------7--7-7-------------7-------|------------------------7---------------7---|
E|-5----------------------------------------5-------|-5--------------------------------------5---|

  A               E           E7 A
  Você de saia rodada, menina, êê
                  E            E7  A
  Toda largada nessa chita fina, êá
                  E
  Bendita luz essa que alumia
            E7                   A
  A sua guia, o seu colar de conta
                          E
  Dona menina não saia da roda
               E7             A
  Você quando samba chove flor no mar
                               E
  Com tanta flor você fica cheirosa
          E7
  Parece rosa
       E/G#          A
  Da roseira de Sinhá

     E              E/D
  Ô roda, menina de chita
   A
  Bonita me deixa rodar
        E               E/G#        A
  Quem sabe combina da gente combinar (2x)

           E
  Você no mar da Bahia
            A/E
  Com esse olhar triunfante
           E
  Na festa da romaria
            A/E
  Do Senhor dos navegantes
 A/E     A9/E   E
  Todo mundo admira
             E E7      A
  Seu samba de pé no chão
                       E
  E em cada volta que dá, ô menina
 E7             A
  Roda meu coração
[epico_capture_sc id=”898″]

Quer receber as Melhoras Aulas e Dicas Exclusivas de Cavaquinho do Professor Damiro?
Entre agora para o Grupo Clube dos Cavaquinistas no Telegram, clicando no link abaixo:
https://t.me/clubedoscavaquinistas

COMENTÁRIOS