Cifra – Afinei As Cordas – Igor Kannário

Cifra – Afinei As Cordas – Igor Kannário

Aprenda a tocar com a Cifra da Música Afinei As Cordas
Intérprete: Igor Kannário
Tom: G

INSCREVA-SE em nosso canal para não perder nenhum vídeo. Bons estudos!

Vídeo:

E|--0---3--------------------------------------|
B|------------0---3----------------------------|
G|--------0--------------0---2-----------------| 2x
D|------------------0--------------0---2-------|
A|------------------------------0--------------|
E|----------------------------------------0----|

G                          Am7
Afinei as cordas do meu violão
                  G
Pra cantar pra você (pra cantar pra você)
               Am7                   Bm7                    Am7
Essa linda canção,Em que falar de amor,Faz lembrar de nós dois. (2x)
Em        Bm7                C             D7
E é muito mais do que você pensa,Minha princesa
Em        Bm7                C             D    C7M         D
Sou incapaz de te fazer sofrer.Mas sou capaz de te fazer feliz
G                        Am7
Derêrêrêrê, derêrêrêrê,Amor
G                        Am7
Derêrêrêrê, derêrêrêrê,Menina, ôh menina
G                        Am7
Derêrêrêrê, derêrêrêrê,Razão, razão
G                        Am7
Derêrêrêrê, derêrêrêrê Viver eieee

Base solo: G  Am7  G  Am7 (2x)

E|---7777777---------------------7-8-10---8-7-------7-8-10---8-7------------|
B|-------------10--8--10-----------------------8-------------------8p10-----|
G|--------------------------------------------------------------------------|
D|--------------------------------------------------------------------------| 2x
A|--------------------------------------------------------------------------|
E|--------------------------------------------------------------------------|

G                           Am7
Afinei as cordas do meu violaõ

Quer receber as Melhoras Aulas e Dicas Exclusivas de Cavaquinho do Professor Damiro?
Entre agora para o Grupo Clube dos Cavaquinistas no Telegram, clicando no link abaixo:
https://t.me/clubedoscavaquinistas

COMENTÁRIOS