Cifra – A Linguagem Dos Olhos – Péricles

Cifra – A Linguagem Dos Olhos – Péricles

Aprenda a tocar com a Cifra da Música A Linguagem Dos Olhos
Intérprete: Péricles
Tom: E

INSCREVA-SE em nosso canal para não perder nenhum vídeo. Bons estudos!

Vídeo:

Intro: B/A   B7/F#   E7+(9)   A7(9)(13)  G#m7   C#7/9  G7+   F#7/9


Solo de Introdução

E|--12-10------12-10-----12-10-----12-10-14-12-|------10-12------|
B|-------12-10------12-10-----12-10------------|-10-12-----12-10-|
G|---------------------------------------------|-----------------|
D|---------------------------------------------|-----------------|
A|---------------------------------------------|-----------------|
E|---------------------------------------------|-----------------|

E|--12-10------12-10-----12-10---------------------|
B|-------12-10------12-10-----12-10-10-12-12-12-12-|
G|-------------------------------------------------|
D|-------------------------------------------------|
A|-------------------------------------------------|
E|-------------------------------------------------|


B9
Quando eu vejo você
                    B/A
A minha boca seca, a mão congela

O sangue ferve

De onde vem tanto poder?
E/G#
E quando você me vê
                    Em/G#
O teu sorriso brilha, tudo muda
          F#7/9
Me deseja como eu desejo você
B9
E quando eu vejo você,

A minha voz embarga
       B/A
A mente voa, sonho mil loucuras pra te satisfazer
E/G#
E quando você me vê

O corpo não me avança
Em/G#
O clima esquenta
               F#7/9
O nosso dialeto é pra quem sabe entender

B/A
A linguagem dos olhos
E/G#
O corpo sabe decifrar
B/A
A linguagem dos olhos
E/G#
Quem faz o coração falar (2x)

G7+
Tudo rola sem um toque
        F#m7
Sem trocar uma palavra
G7+         G#°                       C#m7    F#7/9
É telepatia, é paixão desenfreada

B/A A/G A#/G# ^^^ B/A
A linguagem dos olhos
E/G# ^^^^^  Em/G#
O corpo sabe decifrar
B/A A/G A#/G# ^^^ B/A
A linguagem dos olhos
E/G# ^^^^^  Em/G#
Quem faz o coração falar (2x)

Quer receber as Melhoras Aulas e Dicas Exclusivas de Cavaquinho do Professor Damiro?
Entre agora para o Grupo Clube dos Cavaquinistas no Telegram, clicando no link abaixo:
https://t.me/clubedoscavaquinistas

COMENTÁRIOS